Очередной разбор песни группы Noize MC – Темная Ночь – исполненная самим Noize MC не раз на концертах и просто на улице. Переложена песня с саундтрека (если так можно выразится) из к/ф “Два Бойца” – популярная в годы ВОВ, песня, очень грустная и ритмичная.

Биографию Noize MC можно почитать в предыдущей статье, где я подробно расписал что и как было.

Вот видео разбор песни “Темная Ночь” by MC Noize:

Аккорды подойдут как для электрогитары, так и на акустику.

Табулатура соло:

E |---------------------------|----------------------------|
B |-------1>-0>---------------|----------------------------|
G |o2>----------2>----2-------|-----------0>-2>----0>------|
D |o---2-----------2-----2----|--------3>-------3-----3----|
A |-0-------------------------|-----3----------------------|
E |---------------------------|--1-------------------------|

----------------------------|----------------------------|
----------------------------|----------------------------|
-----------------0----------|----------------------------|
--2>----2>-0>-2-----0-------|--------0>-2>-3-----2--0----|
-----3-----------------3----|-----2-----------2----------|
----------------------------|--3-------------------------|

----------------------------|-----------0>---------------|
----------------------------|--------------0-------------|
--2>-------------0----------|--------0--------0-----0----|
--------2>-0>-------0-------|-----0--------------0-------|
-----3--------3>-------3----|----------------------------|
--1-------------------------|--3-------------------------|

----------------------------|---------------------------||
--------------0>------------|-----0>----------0>--------||
--------2--------2----------|--------2-----------2-----o||
-----2-----2--------2-------|-----------2-----------2--o||
--0-------------------------|---------------------------||
-----------------------1L---|--1-----------3------------||

----------------------------|----------------------------|
--------1>-0>---------------|----------------------------|
--2>----------2>----2-------|-----------0>-2>----0>------|
-----2-----------2-----2----|--------3>-------3-----3----|
--0-------------------------|-----3----------------------|
----------------------------|--1-------------------------|

----------------------------|----------------------------|
----------------------------|----------------------------|
-----------------0----------|----------------------------|
--2>----2>-0>-2-----0-------|--------0>-2>-3-----2--0----|
-----3-----------------3----|-----2-----------2----------|
----------------------------|--3-------------------------|

                               ^  ^  ^  ^  ^  ^  ^  ^
----------------------------|----------------------------|
----------------------------|----------------------------|
--2>-------------0----------|--4--4--4--4--4--4--4--4----|
--------2>-0>-------0-------|--5--5--5--5--5--5--5--5----|
-----3--------3>-------3----|--5--5--5--5--5--5--5--5----|
--1-------------------------|--3--3--3--3--3--3--3--3----|

Табулатура в формате Gpx (Guitar Pro 6) noizeMC_temnaya_noch

Новости, свежие и актуальные новости на сайте http://13stroy.ru. Новинки и факты.

Your ads will be inserted here by

Easy Plugin for AdSense.

Please go to the plugin admin page to
Paste your ad code OR
Suppress this ad slot.