Это видео в котором уже более 19 миллионов просмотров. Сыграна тема из фильма Мортал Комбат в котором эта песня впервые прозвучала. Человек в костюме Райдена (кстати его зовут Ewan Dobson) повелителя молний, играет на гитаре эту чудесную песню. На эту песню сделано множество ремиксов и аранжировок.

Мортал Комбат на гитаре.

Простые табы на гитару Мортал Комбат.

[Part 1]
(Gong)

E|--------------------0-----|--------0-----3-----0-----|--|
B|--------1-----3--------3--|--1--1-----1-----1-----1--|--|
G|--2--2-----2-----2--------|--------------------------|--|
D|--------------------------|--------------------------|--|
A|--------------------------|--------------------------|--|
E|--------------------------|--------------------------|--|

E|--------------------------|--------------------------|--|
B|--------0-----1-----3--1--|--------------1-----1--0--|--|
G|--0--0-----0-----0--------|--------2-----------------|--|
D|--------------------------|--3--3-----3-----3--------|--|
A|--------------------------|--------------------------|--|
E|--------------------------|--------------------------|--|  x2

[Part 2]

E|--------------------|--------------------------|--|
B|--------------------|--------------------------|--|
G|--2--2--2--2--3--5--|--2--2--2--2--3--0--------|--|
D|--------------------|--------------------------|--|
A|--------------------|--------------------------|--|
E|--------------------|--------------------------|--|

E|--------------------|-----------------------|--|
B|--------------------|-----------------------|--|
G|--2--2--2--2--3--5--|--2--2--2--2--2--2--2--|--|
D|--------------------|-----------------------|--|
A|--------------------|-----------------------|--|
E|--------------------|-----------------------|--|   x2

[Part 3]

E|---------------------------------|---------------------------------|--|
B|-----5---------------------------|-----5---------------------------|--|
G|--2-----2--5--2--3--2--5--5p3p2--|--2-----2--5--2--3--2--5--5p3p2--|--|
D|---------------------------------|---------------------------------|--|
A|---------------------------------|---------------------------------|--|
E|---------------------------------|---------------------------------|--|

E|---------------------------------|-----------------------------|--|
B|-----5---------------------------|-----5-----------------------|--|
G|--2-----2--5--2--3--2--5--5p3p2--|--2-----2--5--0--0--2--2--2--|--|
D|---------------------------------|-----------------------------|--|
A|---------------------------------|-----------------------------|--|
E|---------------------------------|-----------------------------|--|   x2