Популярная песня щведской  группы Roxxete, которая принесла наибольшую популярность этой группе благодаря этой песне. Приятные мотивы и непревзойденный вокал Мари́ Фре́дрикссо́н делает эту песню по своему интересной и незабываемой. Осенью 1989 года у Roxette появился второй американский хит № 1, «Listen to your heart». В то же самое время с ними связались из компании «Walt Disney Pictures / Touchstone Pictures», которым нужна была песня для фильма «Красотка»

Как играть Listen to your heart на гитаре видеурок.

У вас есть свой блог и часто выкладываете видео на ютуб. Хотите купить лайки youtube? Нет ничего проще.

 Текст табы и Аккорды.

Вступление:
E|------5-3-2-0---2---5-2-----|
B|----3---------3----3---5-3--|
G|--4---------------4-------4-|
D|-4--------------------------|
A|----------------------------|
E|----------------------------|

E|---------------|
B|-----2-5-3-2---|
G|-2-4---------4-|
D|---------------|
A|---------------|
E|---------------|

E|------5-3-2-0---2---5-2-----|
B|----3---------3----3---5-3--|
G|--4---------------4-------4-|
D|-4--------------------------|
A|----------------------------|
E|----------------------------|

E|-------------|
B|---3-5-------|
G|-4-----------|
D|-------------|
A|-------------|
E|-----------*-|

Hm G A Hm 
I know there?s something in the wake of your smile.
G A Hm 
I get A notion from the look in your eyes, yea.
G A Hm 
You?ve built A love but that love falls apart.
G Em 
Your little piece of heaven turns too dark.

Hm G D A 
Listen to your heart when he?s calling for you.
Hm G D A 
Listen to your heart there?s nothing else you can do.
D A G D 
I don?t know where you?re going and I don?t know why,
Hm G A Hm 
But listen to your heart before you tell him goodbye.

Sometimes you wonder if this fight is worthwhile.
The precious moments are all lost in the tide, yea.
They?re swept away and nothing is what is seems,
the feeling of belonging to your dreams.

Listen to your heart when he?s calling for you.
Listen to your heart there?s nothing else you can do.
I don?t know where you?re going and I don?t know why,
But listen to your heart before you tell him goodbye.

E 
And there are voices that want to be heard.
C#m 
So much to mention but you can?t find the words.
H A 
The scent of magic, the beauty that?s been
H C# 
when love was wilder than the wind.

D#m H F# C# 
Listen to your heart when he?s calling for you
D#m H F# C# 
Listen to your heart, there?s nothing else you can do
F# C# H F# 
I don?t know where you?re going and I don?t know why,
D#m H C# D#m H 
but listen to your heart before you tell him goodbye.