Доброго дня Вам, дорогие гитаристы!

группа Агата Кристи

Агата Кристи

Совсем недавно слышал эту песню по радио, если не ошибаюсь, крутили ее на Авторадио. И мне сразу в голову пришла мысль – “Почему бы не сделать разбор на эту песню?”. Ведь была очень популярна когда-то. Ведь недаром говорят, “Все новое – хорошо забытое старое”.

Песня хороша для исполнения в дружеской компании, ведь слова к песне знает почти каждый (за исключением нынешних школьников и подрастающего поколения). Да и не замысловатый мотив, очень легкие аккорды ( связка аккордов Am – G – C – E) делают песню очень приятной для слуха и души. Ну так, приступим.

 

Бой в песне – стандартная шестерка с глушением. В ритм  попасть очень легко, главное просто прислушаться или послушать оригинал.

Кстати вот и он:

Your ads will be inserted here by

Easy Plugin for AdSense.

Please go to the plugin admin page to
Paste your ad code OR
Suppress this ad slot.

Если кому то не понятно какое вступление:

  Am       G           C        E
e|--0---------3-1-0---------------------
B|----1-0------------3-1-3-0---0-1-0---
G|-2--------0--------------------------
D|-------------------------------------
A|-------------------------------------
E|-------------------------------------

В конце песни есть еще проигрыш:

1|-----------------------------------
2|-----------------------------------
3|----------0------------------------
4|---2--------3-2--0---0-------------
5|-0---3-2-----------3---2--2-3-2-0--
6|---------3-------------------------
1|--------------------------|
2|--------------------------|
3|---------0-------------0-1|
4|--2--------3-2--0--0-2----|
5|----3-2-----------3-------|
6|-0------3-----------------|

Ну вот и все!

Мешают посторонние звуки, хочется записать любимую песню на гитару, но никак не получается. Как этого избежать ? – вопрос не простой. Поможет вам звукоизоляция студии.