Здравствуйте дорогие друзья!

Хочу вас познакомить с замечательной песней группы Ахра – Карие глаза.

Для начала прослушаем ее:

И еще с аранжировкой.

Ну как понравилось?
Перебор в песне простой.

C                           G
-------0-----------0-----|--------3-----------3----
-------1-----------1-----|--------3-----------3----
-------0-----------0-----|--------0-----------0----
----2-----2-----2-----2--|-----0-----0-----0-----0-
-3-----------3-----------|--2-----------2----------
-------------------------|-------------------------

  Am                         F
-------0-----------0-----|--------1-----------1----
-------1-----------1-----|--------1-----------1----
-------2-----------2-----|--------2-----------2----
----2-----2-----2-----2--|-----3-----3-----3-----3-
-0-----------0-----------|--3-----------3----------
-------------------------|-------------------------

Бой к песне стандартный состоит из восьми движений

Your ads will be inserted here by

Easy Plugin for AdSense.

Please go to the plugin admin page to
Paste your ad code OR
Suppress this ad slot.

V V V ^ ^ V ^ V
где  V – вниз, ^ – вверх.

[ad] Пустой рекламный блок (#1)!

Ну и собственно текст:

Твои карие глаза
Твои сладкие уста
Только ты мой ангел
Ты, моя мечта
Буду я тебя любить
В сердце бережно хранить
Целый мир готов тебе я подарить.

Это небо для тебя
Эти звезды для тебя
Это солнце светит только для тебя
ты моя любимая
Ты моя хорошая
Ты моя девчонка, девочка моя.

Как хочу чтоб знала ты
Про тебя лишь мои сны
Как реально будь то в жизни я
Твои карие глаза
Твои сладкие уста
только ты мой ангел ты моя мечта.

Это небо для тебя
Эти звезды для тебя
Это солнце светит только для тебя
ты моя любимая
Ты моя хорошая
Ты моя девчонка, девочка моя.

Это небо для тебя
Эти звезды для тебя
Это солнце светит только для тебя
ты моя любимая
Ты моя хорошая
Ты моя девчонка, девочка моя.

гитара разборы песен

гитара разборы песен

 

 

 

 

 

 

 

 

Хотите проверить скорость своего интернет соединения тогда вам сюда, функциональный сайт проверка скорости интернета бесплатно