В этом постовом мы изучим вступление и бой песни Беспечный ангел.

Эта в свое время популярная группа ( да и в наше тоже ), приобрела статус неофициальной готической рок – группы. Многие песни очень хороши и приятны. Также очень хорошее соло вступление.

Итак, начнем
Как обычно, начнем с прослушки.

Вступление очень красивое  и в то же время не очень сложное, так что думаю понравится:

----------------------|--------------------------
----------------------|--------------0-----------
----------------------|-----------0-----0--------
-------------------0--|--------2-----------2-----
-------------0--2-----|-----2-----------------2--
----------3-----------|--0-----------------------

-------------------------|-------------------------
----------1--------------|-----------3-------------
-------0--------0-----0--|--------0--------0-----0-
----2--------2-----------|-----0--------0----------
-3-----------------3-----|--------------------2----
-------------------------|--3----------------------

-------------------------|-------------------------
----------3--------------|--------------0----------
-------0-----------------|-----------0-----0-------
----0-----------------0--|--------2-----------2----
----------------0--2-----|-----2-----------------2-
-3-----------3-----------|--0----------------------

-------------------------|--------------3----------
----------1--------------|-----------3-----3-------
-------0--------0-----0--|--------0-----------0----
----2--------2-----------|-----0-----------------0-
-3-----------------3-----|-------------------------
-------------------------|--3----------------------

----------------------|-------------------------
----------------------|--------------0----------
----------------------|-----------0-----0-------
-------------------0--|--------2-----------2----
-------------0--2-----|-----2-----------------2-
-3--------3-----------|--0----------------------

-------------------------|-------------------------
----------1--------------|-----------3-------------
-------0--------0-----0--|--------0--------0-----0-
----2--------2-----------|-----0--------0----------
-3-----------------3-----|--------------------2----
-------------------------|--3----------------------

-------------------------|-------------------------
----------3--------------|--------------0----------
-------0-----------------|-----------0-----0-------
----0-----------------0--|--------2-----------2----
----------------0--2-----|-----2-----------------2-
-3-----------3-----------|--0----------------------

-----------------------------------2--3--2h-3p-2----
----------1---------------------3----------------3--
-------0-------0----0------2----------------------2-
----2--------2----------0---------------------------
-3---------------3----------------------------------
----------------------------------------------------

---------2--3--2h-3p-2-------------------0----------
------3----------------3--------------1-----1-------
---2---------------------2---------2-----------2----
-0------------------------------2-----------------2-
-----------------------------0----------------------
----------------------------------------------------

-------------3--------------------2--3--2h-3p-2-----
----------3-----3--------------3----------------3---
-------0-----------0--------2---------------------2-
----0-----------------0--0--------------------------
----------------------------------------------------
-3--------------------------------------------------

------------0--------------------2--3--2h-3p-2-----
---------1-----1--------------3----------------3---
------2-----------2--------2---------------------2-
---2-----------------2--0--------------------------
-0-------------------------------------------------
---------------------------------------------------

-------------------------------------------------
-------------0--------------------1--------------
----------0-----0--------------0--------0-----0--
-------2-----------2--------2--------2-----------
----2-----------------2--3-----------------3-----
-0-----------------------------------------------

Такое вот соло.

Your ads will be inserted here by

Easy Plugin for AdSense.

Please go to the plugin admin page to
Paste your ad code OR
Suppress this ad slot.

Бой весьма необычный, ну и очень простой: ритмичные удары 2 раза вниз, пауза, 2 раза вниз

V v _ V v

V- вниз     _ – пауза

Аккорды :

[ad] Пустой рекламный блок (#1)!

Em – C – G
Em – C – D
Am – G – D – Am
D – Em – C – D

Текст песни Беспечный Ангел.

Ария
Беспечный Ангел

Этот парень был из тех,
Кто просто любит жизнь
Любит праздники и громкий смех,
Пыль дорог и ветра свист.
Он был везде и всегда своим
Влюблял в себя целый свет
И гнал свой байк, а не лимузин,
Таких друзей больше нет.И в гостиной при свечах
Он танцевал, как бог,
Но зато менялся на глазах,
Только вспомнит шум дорог,
Все, что имел, тут же тратил,
И, за порог сделав шаг,
Мой друг давал команду братьям,
Вверх поднимая кулак.Пр.
Ты, летящий вдаль, вдаль ангел
Ты, летящий в даль, вдаль ангел
Ты один только друг во все времена
Немного таких среди нас
Ты, летящий вдаль беспечный ангелПод гитарный жесткий рок,
Который так любил
На харлее он домчать нас мог
До небес и звезд любых.
Но он исчез, и никто не знал
Куда теперь мчит его байк
Один бродяга нам сказал,
Что он отправился в райТы – летящий вдаль, вдаль ангел
Ты – летящий вдаль, вдаль ангел
Но ад стал союзником рая в ту ночь
Против тебя одного
Ты – летящий вдаль беспечный ангел

Ну и самое сладкое скачать gtp ария беспечный ангел 

Нравится готическая музыка, фильмы? Просто без  ума от готического стиля, надписей?
Окунитесь в огромный мир готики на сайте Готы