[ad] Пустой рекламный блок (#1)!

Очередной разбор очень душевной песни “Не плачь”. Песня про жизнь и про все то что бывает в жизни. Исполнитель песни к сожалению мне не известен, кто знает отпишитесь в комментариях, но спел он ее, неплохо. Немного сложный для новичков перебор восьмеркой, и такой же красивый и ритмичный.

6--бас-------------------------------
5------------------------------------
4------------------------------------
3--------0-----0------0---------0-----
2------------------0-----0---0--------
1-----------0---------------------0--

Вот видео песни которое на данный момент имеет 358954 просмотров, что тоже неплохо.

А вот проигрыш в начале песни “Не плачь”:

Проигрыш:
E|-7-----------5-----------------
H|-------5-----------5-----8-----
G|----0-----0-----0-----0--------
D|-------------------------------
A|-7-----------------------------

---------------------------------
----5-----7--8--7--5--1-----1----
-0-----0-----------------2-----2-
---------------------------------
----------------------0----------

E|-3-----------0-----------0-----
H|-------1-----------1-----------
G|----2-----2-----2-----2-----2--
D|-------------------------------
A|-------------------------------

-------5-----------7-------------
-1-----------5-----------5-------
----2-----5-----5-----5-----5----
---------------------------------
-------0-------------------------

E|-8-----------7--8--7--5--0-----
H|-------5-----------------------
G|----5-----5-----------------0--
D|-------------------------2-----
A|-------------------------------

--------0--------------------2---
--0-----------0--1-----0---------
-----0-----0--------2-----2--0---
---------------------------------
-----------------3---------------

Текст песни “Не плачь” ну и конечно,аккорды.

Em                          Am
Я помню только боль, и тишина,
  D                       Em
Упало от свинца на землю тело,
    Em                       Am
Ну, а кругом гремела все война,
     D                   Em
И в небеса душа моя взлетела.

Заплакала моя родная мать,
Упали слезы на страницы жизни,
Пока ей это трудно так понять,
Что сын не мёртв, что он живет в отчизне.

Припев:
         Am       D           Em
    Не плачь, прошу тебя, не плачь,
       Am     D             Em
    Я жив и здесь сейчас у Бога,
         Am   D            Em
    Не плачь, обо мне не плачь,
         Am          D          Em
    Нет места лучше Божьего чертога.

Пусть мало на земле я так прожил,
Пусть мало сделал дел, что были в планах.
Я многое уже здесь позабыл,
О той войне, о боли и о ранах.

Вы лучше плачьте о самих себе,
Из ада в ад попасть ведь так не сложно,
Просите Господа в своей мольбе,
Чтобы попасть на небо было можно.

Довольно-таки грустная песня.
P/s “музыка – это искусство”
Аккорды:

Em / Am
D / Am