Популярная песня исполнителя рэп музыки доктор дре, которая переводиться как “пока дре”. Решил немного разбавить свой блог необычной тематикой для этого сайта. Хотя блог посвящен всему, что связано с гитарой. Попробуйте сыграть ее, ведь это так необычно, хотя в оригинале – играют на пианино.

Dr. Dre ft. Snoop Dogg – Still Dre на гитаре видео.

Табы Dr. Dre ft. Snoop Dogg – Still Dre.

1)-----5-5-5-5-5-5-5-5-5-5-5-3-3-3-3-3-5­
2)-----5-5-5-5-5-5-5-5-5-5-5-5-5-5-5-5-5­
3)-----5-5-5-5-5-5-5-5-4-4-4-4-4-4-4-4-5­
4)--------------------------------------­
5)-----0--------------2-----------------­
6)-0------------------------0-----------­

1)-5-5-5-5-5-5-5-5-5-5-3-3-3-3-3---------
2)-5-5-5-5-5-5-5-5-5-5-5-5-5-5-5---------
3)-5-5-5-5-5-5-5-4-4-4-4-4-4-4-4---------
4)---------------------------------------
5)---------0---------------2-------------
6)----0--------------------------0------0