В интернете куча разных разборов и видеоуроков по данной композиции. Множество из них очень даже ничего,  а некоторые просто ужас. Специально для этого, я нашел парочку видеоразборов которые облегчат и надеюсь помогут в изучении не столь сложного произведения. (В зависимости от аранжировки и использования басовых струн).
Вот видео которое буквально “взорвало интернет” Pirates of the Caribbean [Main Theme].
Смотрим и наслаждаемся:
[spoiler title="Пираты карибского моря"][/spoiler]

В этом видео играют 2 гитариста, хотя на первый взгляд можно подумать что играет один. Хотя видео набирает уже более 18 млн. просмотров.

[note color="#F5DEB3"] Немного про музыку.
По официальным данным саундтрек к первому фильму “Пираты Карибского моря: проклятие черной жемчужины”  вышел в июле 2003 года. Музыка была написана Клаусом Бадельтом (Claus Badelt) совместно с продюсером и композитором Ханс Зиммером (Hans Zimmer) под названием “He’s a pirate” (Он – пират). Помимо него, было также около 15 треков звучавших в фильме. Во второй части “пиратов” Ханс Зиммер немного изменил арнжировку и добавил несколько музыкальных инструментов (были использованы трубный орган, музыкальная шкатулка и электронная музыка) [/note] [spoiler title="Табы Пираты карибского моря .Версия для 2 гитар"]
e--------------------------------------------------|
B--------------------------------------------------|
G--------------------------------------------------|
D--------------------------------------------------|
A-5---5-5--5-5--5-5-5---5---5-5--5-5--5-5-5--------|
E--------------------------------------------------|
e--------------------------------------------------|
B--------------------------------------------------|
G--------------------------------------------------|
D--------------------------------------------------|
A-5---5-5--5-5--5-5-5---5---5-5--5-5--5-5-5--------|
E--------------------------------------------------|

e--------------------------------------------------|
B--------------------------------------------------|
G---------------------------------------------7----|
D--------------------------------------------------|
A-5---5-5--5-5--5-5-5---5---5-5--5-5--5-5-5---5----|
E--------------------------------------------------|

e--------------------------------------------------|
B-------------5-6-6---6-8-5-5----------------------|
G---5-7-7---7-------------------7-5-5h7------------|
D-7------------------------------------------------|
A--------------------------------------------------|
E--------------------------------------------------|
     Dm        Bb        C        Dm

e--------------------------------------------------|
B-------------5-6-6---6-8-5-5----------------------|
G---5-7-7---7-------------------7-5-7~~------------|
D-7------------------------------------------------|
A--------------------------------------------------|
E--------------------------------------------------|
     Bb        F         C        Dm

e-----------------------5-6-6---5---5--------------|
B-------------6-8-8---8-----------8----------------|
G---5-7-7---7-------------------------7------------|
D-7------------------------------------------------|
A--------------------------------------------------|
E--------------------------------------------------|
     Dm        Gm        Am       Dm

e----------5-6-------------------------------------|
B---6-8-8------------6-5-5-------------------------|
G-7------------7---7---------7-5-5h7---------------|
D--------------------------------------------------|
A--------------------------------------------------|
E--------------------------------------------------|
     Bb       Dm         A7       A7

e--------------------------------------------------|
B-------------5-6-6---6-8-5-5----------------------|
G---5-7-7---7-------------------7-5-5h7------------|
D-7------------------------------------------------|
A--------------------------------------------------|
E--------------------------------------------------|
     Dm        Bb        C        Dm

e--------------------------------------------------|
B-------------5-6-6---6-8-5-5----------------------|
G---5-7-7---7-------------------7-5-7~~------------|
D-7------------------------------------------------|
A--------------------------------------------------|
E--------------------------------------------------|
     Bb        F         C        Dm

e-----------------------5-6-6---5---5--------------|
B-------------6-8-8---8-----------8----------------|
G---5-7-7---7-------------------------7------------|
D-7------------------------------------------------|
A--------------------------------------------------|
E--------------------------------------------------|
     Dm        Gm        Am       Dm

e----------5-6-------------------------------------|
B---6-8-8------------6-5-5-------------------------|
G-7------------7---7---------7-5-7-----------------|
D--------------------------------------------------|
A--------------------------------------------------|
E--------------------------------------------------|
     Bb       Dm         A7       Dm

e-------------------1------------------------------|
B---4/5-6-6-8--10\----3----------------------------|
G-7-----7-7-7---7\------2--------------------------|
D--------------------------------------------------|
A--------------------------------------------------|
E--------------------------------------------------|
     C   Bb    A     A

e-6------------------------------------------------|
B-6-6----------------------------------------------|
G-----7-----7-7-7-10-------------------------------|
D-------8---7-7-7--7-------------------------------|
A--------------------------------------------------|
E--------------------------------------------------|
    Gm      Am

e--------------------------------------------------|
B-10-10-10-11-10---8-8-8-8-10----------------------|
G-10-10-10---------9-9-9---------------------------|
D--------------------------------------------------|
A--------------------------------------------------|
E--------------------------------------------------|
     Dm     Dm     C    Dm

e--------------------------------------------------|
B-10-10-10-11-10---6/8-6-5-------------------------|
G-10-10-10---------7/9-7---7-----------------------|
D--------------------------------------------------|
A--------------------------------------------------|
E--------------------------------------------------|
     Dm     Dm     C    Dm

Plucking kicks in here.
I will use 2 bars here 1 for tab and 2nd for pluck
e--------------------------------------------------|
B--------8-10-8---------8-10-8---------------------|
G-7-9-10--------10-9-10----------------------------|
D--------------------------------------------------|
A--------------------------------------------------|
E--------------------------------------------------|
Pluck:
e--------------------------------------------------|
B-----3-----3-----1--------------------------------|
G---2-----2-----0-------2--------------------------|
D-0-----0-------------3----------------------------|
A-------------3------------------------------------|
E-------------------3------------------------------|

e--------------------------------------------------|
B----8-10-8----------------------------------------|
G-10--------10-9-10-9-7-9-5-7----------------------|
D--------------------------------------------------|
A--------------------------------------------------|
E--------------------------------------------------|
Pluck:
e--------------------------------------------------|
B-----------------3-----3--------------------------|
G-----0-----2---2-----2----------------------------|
D---2-----0---0-----0------------------------------|
A-3-----0------------------------------------------|
E--------------------------------------------------|

e--------------------------------------------------|
B-------------8----8-10-8--------------------------|
G-7-9-10-9-10---10--------10-7---------------------|
D--------------------------------------------------|
A--------------------------------------------------|
E--------------------------------------------------|
Pluck:
e--------------------------------------------------|
B-----3-----3-----1--------------------------------|
G---2-----2-----0-------2--------------------------|
D-0-----0-------------3----------------------------|
A-------------3------------------------------------|
E-------------------3------------------------------|

e--------------------------------------------------|
B--------8^-10-8--------8--------------------------|
G-7-9-10---------7-9-10---9-7-9-5------------------|
D--------------------------------------------------|
A--------------------------------------------------|
E--------------------------------------------------|
Pluck:
e--------------------------------------------------|
B--------------------------------------------------|
G-----3-----3-----5-----5--------------------------|
D---------5-----7-----7----------------------------|
A---5----------------------------------------------|
E-3-----3-----5-----5------------------------------|

Back to chords again from this point.
e--------------------------------------------------|
B-10-11--------------------------------------------|
G--7-10-14-14-14-14\12---12-10-9-10-9-7------------|
D-------15-15-15-15------12-10-7--7-7-7------------|
A--------------------------------------------------|
E--------------------------------------------------|
  Dm Bb C        F       Gm Am Am     Dm

e--------------------------------------------------|
B-10-11--------------------------------------------|
G--7-10-14-14-14-14\12---12-10-9-10-9-7------------|
D-------15-15-15-15------12-10-7--7-7-7------------|
A--------------------------------------------------|
E--------------------------------------------------|
  Dm Bb C        F       Gm Am Am     Dm

e-------------------------------------------------------|
B-------10-------11--------10-10-10-10\8----8-6-5-6-5---|
G-----10-------10-------10-10-10-10-10\8----9-7-7-----7-|
D---12-------12-------12--------------------------------|
A-12-------12-------12----------------------------------|
E-------------------------------------------------------|
        Dm       Bb        C        F       Gm Am Am  Dm

e-------------------------------------------------------|
B-------10-------11--------10-10-10-10\8----8-6-5-6-5---|
G-----10-------10-------10-10-10-10-10\8----9-7-7-----7-|
D---12-------12-------12--------------------------------|
A-12-------12-------12----------------------------------|
E-------------------------------------------------------|
        Dm       Bb        C        F       Gm Am Am  Dm
[/spoiler]

И на закуску хотелось бы добавить еще одно видео немалоизвестного исполнителя Sungha Jung, о котором я писал ранее. Вот посмотрите обязательно (нажмите не плюсик):
[spoiler title="Пираты by Sungha Jung"] [/spoiler]

Видео на данный момент имеет аж 34829311! просмотров. Качайте Табы Пиратов Карибского Моря Sungha Jung в Gtp и будет вам счастье.

______________________________________________________________________________________________

Хотите купить обувь в Москве? Нет ничего проще. Покупайте модную обувь по лучшим ценам. Будь в тренде!