Ролик который набрал более 600000 просмотров за год  (не такая уж большая цифра скажете Вы), но это очень даже нормально. 4 гитариста (в армейке) играют песню из некогда нашумевшего к/ф Бумер, причем играют очень профессионально. 1 соло + 1 аранжировка + 1 басист + 1 задает такт (играет по аккордам).

Причем играют не только Бумер но и саундтрек из к/ф Такси и Сектор Газа –  Пора Домой.

Вот список того что сыграли:

Гитара звучит !

Гитара звучит !

  • Сергей Шнуров – Мобильник (к/ф “Бумер”);
  • Queen – Innuendo;
  • Dick Dale and His Del Tones – Miserlou;
  • Metallica – Master of Puppets;
  • Сектор Газа – Пора Домой.

Качество видео заставляет желать лучшего, но это в э том видео не главное. Главное в ней музыка исходящая из струн этих талантливых гитаристов ПВОшников (судя по комментариям).
А вот и видео:

Вот табулатура к песне из к/ф “Бумер” можете скачать вот здесь.
А также табы Queen Innuendo.
Табы Dick Dale and His Del Tones – Misirlou:

E|---------|---------|---------|
B|---------|---------|---------|
G|---------|---------|---------|
D|---------|---------|---------|
A|---------|---------|---------|
E|-#-#-7s0-|-0-0-0-0-|-0-0-0-0-|

             "hu!" "hu!"  "haa!"
E|-----------|------------|---------|--------|
B|-----------|------------|---------|--------|
G|-----------|------------|---------|--------|
D|-----------|------------|---------|--------|
A|-----------|------------|---------|--------|
E|-0-0h1-4-5-|-7-7h8-11-8-|-7-7-7-7-|7-7-s-0-|

E|-----------|------------|---------|---------|
B|-----------|------------|---------|---------|
G|-----------|------------|---------|---------|
D|-----------|------------|---------|---------|
A|-----------|------------|---------|---------|
E|-0-0h1-4-5-|-7-7h8-11-8-|-7-7-7-7-|-7-7-7-7-|

E|-----------|-----------|---------|---------|
B|-----------|-----------|---------|---------|
G|-----------|-----------|---------|---------|
D|-----------|-----------|---------|---------|
A|-----------|-----------|---------|---------|
E|-8-7h8-7-5-|-7-5h7-5-1-|-4-4-4-4-|-4-4-4-4-|

                           1pick
E|-------------|-----------|---------|-7sssss0-|
B|-------------|-----------|---------|---------|
G|-------------|-----------|---------|---------|
D|-------------|-----------|---------|---------|
A|-------------|-----------|---------|---------|
E|-5h8-7h8-7-5-|-7-5h7-5-#-|-1-4-0-0-|---------|

E|-0-0h1-4-5-|-7-7h8-11-8-|-7-7-7-7-|7-7-7s0-|
B|-----------|------------|---------|--------|
G|-----------|------------|---------|--------|
D|-----------|------------|---------|--------|
A|-----------|------------|---------|--------|
E|-----------|------------|---------|--------|

E|0-0h1-4-5-|-7-7h8-11-8-|-7-7-7-7-|-7-7-7-7-|
B|----------|------------|---------|---------|
G|----------|------------|---------|---------|
D|----------|------------|---------|---------|
A|----------|------------|---------|---------|
E|----------|------------|---------|---------|

E|-8-7h8-7-5-|-7-5h7-5-1-|-4-4-4-4-|-4-4-4-4-|
B|-----------|-----------|---------|---------|
G|-----------|-----------|---------|---------|
D|-----------|-----------|---------|---------|
A|-----------|-----------|---------|---------|
E|-----------|-----------|---------|---------|

                         singlepick
E|-8-7h8-7-5-|-7-5h7-5-#-|-1-4-0-0-|
B|-----------|-----------|-------0-|
G|-----------|-----------|---------|
D|-----------|-----------|---------|
A|-----------|-----------|---------|
E|-----------|-----------|---------|

[ad] Пустой рекламный блок (#1)!

Также табы Metallica – Master of Puppets.
И sektor_gaza_-_pora_domoj_2.
_______________________________________________________________________
Хотите узнать про договорные матчи по футболу? Много интересной и полезной информации о матчах, футболе вы найдете на сайте без проблем.