Популярная песня группы Аукцыон, которые вы наверно слышали из фильма “Брат”. Песня довольно таки специфичная для исполнения, особенно это касается вокала. Вряд ли удастся спеть песню как в оригинале, но кто сможет отпишитесь в комментариях. Однако у парней с видео практически это удалось.

Как играть АукцЫон – “дорога”.

“Я сам себе и небо и луна” аккорды и текст.


   Em                   Am
Я сам себе и небо, и луна,
 Am       H7        Em
Голая, довольная луна,
 Em       Am         H7    Em
Долгая дорога, да и то не моя.

A|-2-2-2-2----2-2-2-2-2-x-x-|
E|-0-0-3-0----0-3-0-3-0-5-3-|

За мною зажигали города,
Глупые, чужие города,
Там меня любили, только это не я.
Hm C Am    H7
О--о-о, зона!
Hm       C
Ожидает напряженно
 Am      H7
Родниковая.
Я сам себе и небо и луна,
Голая, довольная луна,
Долгая дорога бескайфовая.

Меня держала за ноги земля,
Голая тяжелая земля,
Медленно любила пережевывая.
И пылью улетала в облака,
Крыльями метала облака
Долгая дорога бескайфовая.
О, зона!
Ожидает напряженно,
Беспросветная.
Я сам себе и небо, и луна,
Голая, довольная луна,
Я летаю где-то, только это не я. 

АукцЫон – “дорога” бас.

E|---------------------------|
B|---------------------------|
G|---------------------------|
D|---------------------------|
A|--2-2-2-2----2-2-2-2-2-x-x-|
E|--0-0-3-0----0-3-0-3-0-5-3-|

АукцЫон – “дорога” соло.

E|--7---5---3---0---------------------|
B|--------------------3--5--3-5-3-5-3-|
G|------------------------------------|
D|------------------------------------|
A|------------------------------------|
E|------------------------------------|